Navigando su questo sito acconsenti all'uso dei cookie anche di terze parti per fini statistici, pubblicitari e per migliorare l'esperienza utente.  Cookie Policy

29 settembre - Richiestaccordi
 
Richiesta da Luca

Lucio Battisti - 29 settembre
(http://www.richiestaccordi.com)

INTRO: RIFF1

RIFF 1
Re4         Re          Re4         Re        Re4        Re
e|-3------2------3-------2-----3------2------|
B|---3------3------3-------3-----3------3----|
G|-----2------2------2-------2-----2------2--|
D|-0-----------------------------------------|
A|-------------------------------------------|
E|-------------------------------------------|

STROFA:
La                                  Sol                         Re          RIFF 1
Seduto in quel caffè, io non pensavo a te
La                                         Sol                         Re   RIFF 1
Guardavo il mondo che, girava intorno a me
La                                      Sol
Poi d'improvviso lei sorrise
RIFF 2
e|-----0-2-0---0-------|
B|-0-3-------3---3--0--|
G|---------------------|
D|---------------------|
A|---------------------|
E|---------------------|

La                                     Sol
e ancora prima di capire
Sol/Fa#    Mi-7
mi          trovai sottobraccio a lei
Sol      Sol/Fa#   Mi-7                               Re
stretto come        se non ci fosse che lei

RIFF 3    (2 volte)
e|-------0-2-0---0--------|
B|-3-0-3-------3---3---0--|
G|------------------------|
D|------------------------|
A|------------------------|
E|------------------------|

STROFA:
La                             Sol                     Re       RIFF 1
Vedevo solo lei, e non pensavo a te.
La                             Sol                       Re     RIFF 1
E tutta la città, correva incontro a noi.
La                               Sol      RIFF 2
Il buio ci trovò vicini
La                                      Sol
un ristorante e poi di corsa
Sol/Fa#   Mi-7
a ballar sottobraccio a lei
Sol Sol/Fa#   Mi-7                              
stretto verso casa abbracciato a lei
Sol Sol/Fa#   Mi-7                              
quasi come se non ci fosse che,
Sol Sol/Fa#   Mi-7                               Re
quasi come se non ci fosse che lei.

STRUMENTALE:
RIFF 4
e|-11-9-8-----------------|-11-9-8-----------------|-
B|--------11-9----------9-|--------11-9----------9-|-
G|-------------10-8-h10---|-------------10-8-h10---|-
D|------------------------|------------------------|-
A|------------------------|------------------------|-
E|------------------------|------------------------|-

e-|-11-9-8------9-8-11-|-11-9-8------------------|
B-|--------11-9--------|--------11-9-----------9-|
G-|--------------------|--------------10-8-h10---|
D-|--------------------|-------------------------|
A-|--------------------|-------------------------|
E-|--------------------|-------------------------|

Dopo il RIFF4
Re Do La
Re

STROFA:
La                                 Sol                     Re             RIFF1
Mi son svegliato e, e sto pensando a te
La                                   Sol                       Re         RIFF1
Ricordo solo che, che ieri non eri con me.
La                               Sol       RIFF2
Il sole ha cancellato tutto
La                                 Sol      
di colpo volo giù` dal letto
Sol/Fa#   Mi-7                              
e corro    lì al telefono
Sol       Sol/Fa#   Mi-7                              
e parlo, rido        e tu, tu non sai perché
Sol     Sol/Fa#   Mi-7                              
t'amo, t’amo e tu, tu non sai perché
Sol     Sol/Fa#   Mi-7                              
parlo, rido        e tu, tu non sai perché
ENDING:
Sol Sol/Fa#   Mi-7               ad libitum…
 
Copyright © 2020 Richiestaccordi. All Right Reserved.
Powered By Joomla Perfect