Navigando su questo sito acconsenti all'uso dei cookie anche di terze parti per fini statistici, pubblicitari e per migliorare l'esperienza utente.  Cookie Policy

Wake me up when September ends - Richiestaccordi
 
Richiesta da Nicola
Green day - Wake me up when September ends
INTRO: G   X4
e|-------------------|
B|--------3-------3--|
G|-----0-------0-----|
D|--5-------5--------|
A|-------------------|
E|-------------------|

VERSE:
      G                           G7+                    G6                        G/D              
e|------------------|---------------|----------------|---------------|
B|--------3-------3-|------3------3-|------3-------3-|------3------3-|
G|-----0-------0----|----0------0---|----0-------0---|----0------0---|
D|--5-------5-------|--4-----4------|--2------2------|--0-----0------|
A|------------------|---------------|----------------|---------------|
E|------------------|---------------|----------------|---------------|

    Cadd9                       Cm                            G                                G
e|------0------0-|---------------|----------------|----------------|
B|------3------3-|------4------4-|------3-------3-|------3-------3-|
G|----0------0---|----5------5---|----0-0-----0-0-|----0-0-----0-0-|
D|---------------|---------------|----------------|----------------|
A|--3------3-----|--3------3-----|----------------|----------------|
E|---------------|---------------|--3-------3-----|--3-------3-----|
                                                   
VERSE:
G                     G/F#
Summer has come and passed
Em7                         D
the innocent can never last
Cadd9             Cm                           G                       
wake me up when September ends

G                         G/F#
like my father's come to pass
Em7                     D
Seven years has gone so fast
Cadd9             Cm                              G   G/F#                  
wake me up when September ends

VAR:
Em7                     Bm7
Here comes the rain again
Cadd9                     G G/F#
falling from the stars
Em7                    Bm7
drenched in my pain again
Cadd9                       Dsus4
becoming who we are

VERSE:
G               G/F#
As my memory rests
Em7                        D
But never forgets what I lost
Cadd9            Cm                          G            
Wake me up when September ends

INSTR: G

VERSE:
G                       G/F#
summer has come and passed
Em7                       D
the innocent can never last
Cadd9            Cm                       G                        
wake me up when September ends

G                G/F#
ring out the bells again
Em7                            D
like we did when spring began         
Cadd9           Cm                           G                      
wake me up when September ends

VAR:
Em7                     Bm7
here comes the rain again
Cadd9                    G G/F#
falling from the stars
Em7                  Bm7
drenched in my pain again
Cadd9                     Dsus4
becoming who we are

VERSE:
G                     G/F#
as my memory rests
Em7                             D
but never forgets what I lost
Cadd9            Cm                           G          G/F#   
wake me up when September ends

INSTR Solo: Em7     Bm7   Cadd9   G G/F#
                         Em7     Bm7 Cadd9     Dsus4
                         G

VERSE:
G                     G/F#
summer has come and passed
Em7                       D
the innocent can never last
Cadd9            Cm                           G                                 
wake me up when September ends

G                         G/F#
like my father's come to pass
Em7                         D
twenty years has gone so fast
Cadd9            Cm                              G                               
wake me up when September ends
Cadd9           Cm                               G                               
wake me up when September ends
Cadd9           Cm                               G                               
wake me up when September ends



CHORDS’ SUMMARY:
G/F#: 2x0022
Cadd9: x32030
Bm7:x2023x
Dsus4: x54035
 
Copyright © 2020 Richiestaccordi. All Right Reserved.
Powered By Joomla Perfect